B Praak - MAANA DIL Guitar Chords and Tabs (Good Newws)

Buy best guitars, guitar processer, zoom, tuners in lowest price on Amazon.
B Praak - MAANA DIL Guitar Chords and Tabs (Good Newws)
Leran to play Maana Dil guitar chords with solo tab by B Praak from movie Good Newws. [D] major is the guitar scale for Maana dil chords and strumming patterns are DUDUDUD DUDUD.

Maana Dil Guitar Chords

Artist : B Praak
Key : [D]
Chords : [D] [G] [A] [Bm]
Tune : Standard E scale
Copo : No
Strumming : DUDUDUD DUDUD


[INTRO]
[D] [G] [D] [G]
[D] [G] [D] [G]

[VER]
Roothe[D] roothe se[G] savere
Jaage[D] jaage hain[G] andhere
Roothe[D] roothe se[G] savere
Jaage[D] jaage hain[G] andhere

[PRE CHO]
[G]Lehron ko kinare
[A]Mil jayenge saare
[G]Paas hain jo
Lagta hai[D] door

[CHO]
Ke maana[Bm] dil da hi mera
Hai[G] kasoor
Aise[A] koyi vi na hove
[G]Majboor
Maana[Bm] dil da hi mera
hai[G] Kasoor
Aise[A] koyi vi na hove
[G]Majboor

[DROP]
[D] [G] [D] [G]
[D] [G] [D] [G]

[VER]
[D]Khoya hai jo woh[G] mil jayega
[D]Toota hai jo woh[G] jud jayega
[D]Khoya hai jo woh[G] mil jayega
[D]Toota hai jo woh[G] jud jayega

[PRE CHO]
Tera[G] mera yeh safar
Jaane[A] le aaya kidhar
Khwab[G] dekhe the jo
Ho gaye hain[D] choor

[CHO]
Ke maana[Bm] dil da hi mera
Hai[G] kasoor
Aise[A] koyi vi na hove
[G]Majboor
Maana[Bm] dil da hi mera
hai[G] Kasoor
Aise[A] koyi vi na hove
[G]Majboor

[OUTRO SOLO]

E|--------------------------------|
B|--------------------------------|
G|-7-/7-6-9-7-6-4----2/4--4/7-7-7-|
D|----------------7---------------|
A|--------------------------------|
E|--------------------------------|


E|--------------------------------|
B|--------------------------------|
G|-7-/7-6-9-7-6-4----2/4--4/7-7-7-|
D|----------------7---------------|
A|--------------------------------|
E|--------------------------------|

E|--------------------------------|
B|--------------------------------|
G|-9/11-9-9-----------------------|

E|--------------------------------|
B|--------------------------------|
G|-7-/7-6-9-7-6-4----2/4--4/7-7-7-|
D|----------------7---------------|
A|--------------------------------|
E|--------------------------------|

[D] [G] [D] [G]

Maana Dil youtube by B Praak

About Song

Movie : Good Newws
Lyrics : Rashmi Virag
Released : December 09, 2019
Published by : Zee Music