Accurate Guitar Intro solo Tab for GIRLS LIKE YOU | Maroon 5 | Cardi B |

Accurate Guitar Intro solo Tab for GIRLS LIKE YOU | Maroon 5 | Cardi B |

Competely Accurate and original guitar intro tab for "GIRLS LIKE YOU" from American Band "Maroon 5". Complete and accurate on Chords In One.


PLAY WITH THE RYTHEM OF SONG.


E|-----------------------------
B|-----------------------------
G|-----------------------------
D|---5-5-5-5-5----5-3-3-2-2----
A|-3---------------------------
E|-----------------------------

E|-----------------------------
B|-----------------------------
G|-----------------------------
D|---5-5-5-5-5----5-7-7-2-2----
A|-3---------------------------
E|-----------------------------

E|-----------------------------
B|-----------------------------
G|-----------------------------
D|---5-5-5-5-5----5-3-3-2-2----
A|-3---------------------------
E|-----------------------------

E|-----------------------------
B|-----------------------------
G|-----------------------------
D|---2-2-2-2-------------------
A|-5---------5-----------------
E|-----------------------------

Guitar Intro Tab for GIRLS LIKE YOU on Chords In One.