TERA GHATA Guitar Chord and Solo Tab complete and accurate : Gajendra Verma

TERA GHATA Guitar Chord and Solo Tab complete and accurate : Gajendra Verma
Get Tera ghata guitar chord by Gajendra Verma. TERA GHATA is a beautiful emotional song Lead singer is Gajendra Verma. The song is written by Gajendra Verma and the music video director is Vikram Singh. Get Accurate Guitar Chord and solo of Tera Ghata.

TERA GHATA Guitar Chord and Solo Tab


/ = Slide Forward
\ = Slide Backword

SONG - TERA GHATA
SINGER - GAJENDRA VERMA
YEAR - 2018
KEY - [Cm]
CHORDS - [Cm] [E] [B] [A]

Cm                 E              B
Kuch soch ke bola hoga tune..
Cm           E             B
Ye pyar v tola hoga tune..
Cm                  E           B
Ab na hai to fir na sahi dilbar..
Cm                 E              B
Is dil ko ye samjha liya humne..

Cm                             E            B

Isme tera ghata mera kuch nhi jata.. 
Cm                                  E          B
Jyada pyar ho jata to mai sah nhi pata..

Cm                        E         B

Kuch khaas tha ye jaan leti jo..
Cm                  E              B
Meri nazar se dekha hota tune..
Cm                  E              B
Is baat ka bas gum hua mujhko..
Cm                   E        B
Thodi si koshish na ki tune..
Cm                              E          B
Isme tera ghata mera kuch nhi jata.. 
Cm                                  E         B
Jyada pyar ho jata to mai sah nhi pata..






Cm                   B

Socha nhi tha zindagi me yu milogi..
A                B
Milke v tum na meri ho sakogi..
Cm            B
Par yaad aayegi jab v tumhari..
A            B         Cm       B  Cm
Sikayete na hogi bas dua rahegi..

Guitar solo

E---------------------------------------------------
B-18h-14--14-12-10-9---7-10-9-s7\5-4----------------
G---------------------------------------------------
D---------------------------------------------------
A---------------------------------------------------
E---------------------------------------------------


E---------------------------------------------------

B----------------------------------------9----------
G-----9-11h-11-9--s4\2------------9-11--11--9-8-9-8-
D-/11------------------------9-11-------------------
A-------------------------11------------------------
E---------------------------------------------------

Cm              E                 B

Ab aur kya kehna hoga humne..
Cm                    E             B
Karna tha jo wo kar liya tumne..
Cm                     E              B
Shayad rahoo ya na rahoo dilbar..
Cm                 E       B
Badla kavi ye faisla tune..

Cm                            E             B

Isme tera ghata mera kuch nhi jata ..
Cm                                  E           B
Jyada pyar ho jata to mai sah nhi pata.. 

Tera Ghata Guitar Chords In One

Note: If you get any corrections or suggestions on this song please comment on the comment box. It will make us better to generate chords. Thanks for visiting Chordsinone.